S U2

Silver and Gold bass

U2

Album:Rattle and Hum

Year:1988

tools Ultimate Tabs

Start AutoScroll Font Size Down Font Size Up

Find us on Facebook

chords
tabs
bass
ukulele
keyboards
drums
flute
harmonica
guitar pro
video
Ultimate-Tabs

Silver and Gold

Song: Silver and Gold
Band: U2
Bassist: Adam Clayton
Transcripted by Angelus Rho Needreary III (Eric Needreary)

NOTE:

5== -> Let ring

Intro

G||----------|
D||-REST-----|
A||----------|
E||----------|

Begin at "in this tin can town, tin can town
  \Repeat this till____| \"The warden says:|"The exodus sold".|
G||--------------------|||-----------------|------------------|
D||------------------|||-----------------|------------------|
A||-7----7----7----7-|||-----------------|-0================|
E||--------------------|||-0===============|------------------|

 \"If you wanna a way out||
G|-----------------------||
D|-----------------------||
A|-----------------------||
E|-2=====================||

1st Verse
  \"Silver and Gold"..."I'm Someone_|
G||-----------------------------||
D||------5-7--7-----------------||
A||-7--7--------5--5-5-7--------||
E||----------------------5-2-5--||

Then you you play more two times.

Chorus
  \"Captains and Kings,|in the ship's hold|They came to collect|
G||--------------------|------------------|--------------------|
D||--------------------|------------------|--------------------|
A||--------------------|0=================|--------------------|
E||-0==================|------------------|2===================|

2nd Verse
 \"Silver and Gold"..."Bright and shiny things_|
G||-----------------------------||
D||------5-7--7-----------------||\Here you play softly.
A||-7--7--------5--5-5-7--------||
E||----------------------5-2-5--||

 \"The temperature"..."(set them free)_|
G||-----------------------------||
D||------5-7--7-----------------||
A||-7--7--------5--5-5-7--------||
E||----------------------5-2-5--||

Then you play two times again

Chorus

  \"A prize fighter in |a corner is told|Hit where it hurts|
G||--------------------|----------------|------------------|
D||--------------------|----------------|------------------|
A||--------------------|0===============|------------------|
E||-0==================|----------------|2=================|

Then you go back to the main riff.
less
plus
Add to Songbook Print Version How to play lesson Submit videolesson
Click the best TAGS for this song:
None of them
Contributor: falcLutt Correct

If you can not find the chords or tabs you want, look at our partner E-chords. If you are a premium member, you have total access to our video lessons.

If you find a wrong Bad To Me from U2, click the correct button above.

login/signup
my songbooks
my recent views
my submits