S U2

Staring at the sun tab

U2

Album:Pop

Year:1997

tools Ultimate Tabs

Start AutoScroll Font Size Down Font Size Up

Find us on Facebook

chords
tabs
bass ukulele keyboards
drums
flute
harmonica
guitar pro video
Ultimate-Tabs

Staring at the sun

Song: Staring at the Sun
Artist: U2
Album: Pop (1997)
Tabber: Vahi786

Here's the lead riffs for the song. (I noticed Chords, but no lead, so I tabbed it).
Light Distortion through the whole song.

Intro
(w/ Chorus and Echo)
---------------|
---------------|
-5-5/7-9p7-9---| x4
---------------|
---------------|
---------------|

Verse 1/Prechorus (Harmonics)
(w/ Chorus, Echo and I think Edge uses an Octave pedal, but I'm not sure.)
--------------------------|
--------------------------|
--7~-7~------7~-7~--------| x?
-------7~---------7~------|
--------------------------|
--------------------------|

Chorus
(w/ Chorus and Echo)
-10p8-10p8-5/8-10/12\10-8~-|
---------------------------|
---------------------------| x2
---------------------------|
---------------------------|
---------------------------|

-10p8-10p8-5/8-10~-10p8\5~---|
-----------------------------|
-----------------------------|
-----------------------------|
-----------------------------|
-----------------------------|

-10p8-10p8-5/8-10/12\10-8~-|
---------------------------|
---------------------------|
---------------------------|
---------------------------|
---------------------------|

Then repeat twice, in the same order.

Repeat Intro

Verse 2
Same Harmonics are played, but eventually Edge plays this riff
(w/ Chorus and Echo)
-----------------------|
-7p4-7p4-7p4-7/9~~-----|
-----------------------|
-----------------------|
-----------------------|
-----------------------|

Repeat Verse 1/Prechorus

Repeat Chorus

Bridge
(w/ Chorus, Echo, and slightly more heavy Distortion)
------------------------------------|
-5-5--7~----------7h8p7-(7h8p7)-----|
-5-5--7~----(x4)--------------------|
-7-7--7~----------------------------|
-7-7--5~----------------------------|
------------------------------------|

Repeat Verse

Repeat Prechorus

Repeat Chorus

Outro
(w/ Chorus and Echo)

--------------------------------|
--------------------------------|
-5-5/7-9p7-9-(x3)-12\5-4/5\2----|
--------------------------------|
--------------------------------|
--------------------------------|

Then repeat the bridge until the song fades out.
less
plus
Add to Songbook Print Version How to play lesson Submit videolesson
Click the best TAGS for this song:
None of them
Contributor: lagedavi Correct

If you can not find the chords or tabs you want, look at our partner E-chords. If you are a premium member, you have total access to our video lessons.

If you find a wrong Bad To Me from U2, click the correct button above.

login/signup
my songbooks
my recent views
my submits