UB40

Cream Puff bass

UB40

tools Ultimate Tabs

Start AutoScroll Font Size Down Font Size Up

Find us on Facebook

chords
tabs
bass
ukulele
keyboards
drums
flute
harmonica
guitar pro
video
Ultimate-Tabs

Cream Puff

'Cream Puff'is taken from UB40`s 2009'Labour Of Love IV':

Intro:
G|------|-----|-----|----|
D|------|-3-6-|-----|----|
A|--3-6-|4----|-3-6-|--6-|
E|44----|-----|4----|---4|

Verses 1 & 2:
G||:--------|--------|--------|--------|--------|
D||:--------|--------|--3366--|--3366--|--------|
A||:--3366--|--3366--|44----4-|44----4-|--3366--|
E||:44----4-|44----4-|--------|--------|44----4-|
                                
G|--------|------|-----|-----|----:||
D|--5588--|------|-3-6-|-----|----:||
A|66----6-|--3-6-|4----|-3-6-|--6-:||
E|--------|44----|-----|4----|---4:||

Bridge 1:
G|--------|--------|--------|--------|
D|--3366--|--------|--5588--|--------|
A|44----4-|--3366--|66----6-|--3366--|
E|--------|44----4-|--------|44----4-|

G|--------|--------|--------|--------|--------|
D|--3366--|----55--|--3366--|--5588--|-585----|
A|44----4-|3366--6-|44----4-|66----6-|6---6-66|
E|--------|--------|--------|--------|--------|

Verse 3:
G|--------|--------|--------|--------|--------|
D|--------|--------|--3366--|--3366--|--------|
A|--3366--|--3366--|44----4-|44----4-|--3366--|
E|44----4-|44----4-|--------|--------|44----4-|

G|--------|------|-----|-----|----|
D|--5588--|------|-3-6-|-----|----|
A|66----6-|--3-6-|4----|-3-6-|----|
E|--------|44----|-----|4----|----|

Bridge 2:
G|--------|--------|--------|--------|
D|--3366--|--------|--5588--|--------|
A|44----4-|--3366--|66----6-|--3366--|
E|--------|44----4-|--------|44----4-|

G|--------|--------|--------|--------|--------|
D|--3366--|----55--|--5566--|--5588--|-585----|
A|44----4-|3366--3-|44----4-|66----6-|6---6-66|
E|--------|--------|--------|--------|--------|

Verse 4:
G|--------|--------|--------|--------|--------|
D|--------|--------|--3366--|--3366--|--------|
A|--3366--|--3366--|44----4-|44----4-|--3366--|
E|44----4-|44----4-|--------|--------|44----4-|

G|--------|------|-----|-----|----|
D|--5588--|------|-3-6-|-----|----|
A|66----6-|--3-6-|4----|-3-6-|--6-|
E|--------|44----|-----|4----|---4|

Outro:
G||:------|-----|-----|----:||
D||:------|-3-6-|-----|----:||
A||:--3-6-|4----|-3-6-|--6-:||
E||:44----|-----|4----|---4:||


Comments/Corrections Welcome..

less
plus
Add to Songbook Print Version How to play lesson Submit videolesson
Click the best TAGS for this song:
None of them
Contributor: bj12Lazy Correct

If you can not find the chords or tabs you want, look at our partner E-chords. If you are a premium member, you have total access to our video lessons.

If you find a wrong Bad To Me from UB40, click the correct button above.

login/signup
my songbooks
my recent views
my submits