S Umbrellas

Tests On My Heart tab

Umbrellas

tools Ultimate Tabs

Start AutoScroll Font Size Down Font Size Up

Find us on Facebook

chords
tabs
bass
ukulele
keyboards
drums
flute
harmonica
guitar pro
video
Ultimate-Tabs

Tests On My Heart

Standard Tuning

Listen to the song for the timing

Song structure:

     Verse
     Chorus
     Verse
     Chorus
     Bridge
     Chorus as chords
     Verse


Verse
e |---------------------------9-------------6-----9-----7-------|
B |---------11-------12-----------------------7-----7-----7-----|
G |------11----11-------11------11------------------------------|
D |-------------------------------------------------------------|
A |--9-(9)--------9--------9-------9----------------------------|
E |-------------------------------------6-6-----6-----6-----6---|

e |--------------9------9/11-------------9------------------------|
B |------11-------------------------------------12------11--------|
G |---------11-----11--------11------------11------11------11-----|
D |--9-9-------9------9---------9---------------------------------|
A |---------------------------------------------------------------|
E |----------------------------------9-9------9-------9-------9---|


Chorus
e |----------------------------------------------------------|
B |------11------------11------------11------------11--------|
G |---------11------------11------------11------------11-----|
D |--9-9-------9---9-9-------9-------------------------------|
A |------------------------------9-9-------9-----------------|
E |--------------------------------------------9-9-------9---|


Bridge
e |-----6------------------------|
B |----7----11-----------7-------|
G |-----------------11-----------| Play
D |------------------------------| 4x
A |--6----9----------------------|
E |------------9h11----7---------|
Then
e |--------------|
B |--------------|
G |---------11---| After he plays this,
D |-------11-----| he plays the chorus as chords
A |--7/9-9-------|
E |--------------|

Chorus as chords
e |--------------------|
B |-----11-------------|
G |---11-----11--------|
D |--9-----11-----11---|
A |-------9-----11-----|
E |------------9-------|
less
plus
Add to Songbook Print Version How to play lesson Submit videolesson
Click the best TAGS for this song:
None of them
Contributor: russbigm Correct

If you can not find the chords or tabs you want, look at our partner E-chords. If you are a premium member, you have total access to our video lessons.

If you find a wrong Bad To Me from Umbrellas, click the correct button above.

login/signup
my songbooks
my recent views
my submits