S Unwound

Laugh Track tab

Unwound

tools Ultimate Tabs

Start AutoScroll Font Size Down Font Size Up

Find us on Facebook

chords
tabs
bass
ukulele
keyboards
drums
flute
harmonica
guitar pro
video
Ultimate-Tabs

Laugh Track

Artist: Unwound
Song: "Laugh Track"
Album: Challenge for a Civilized Society (1998)



Tuning: Standard



Intro:
e|------------------------------------------------------------------------------------------------|
B|------------------------------------------------------------------------------------------------|
G|-------------------------------------------3p2p0------------------------------------------------|
D|-------------8-----8-h9\-------------4-----------------------------------------2--2-------------|
A|-7--7-----7-----7--------3--3-----3-----3--------1--1-----1--2--2-----2--2--1-------------------|
E|-------------------------------------------------------------------------------------1--1--1----|



Verse:
e|------------------------------------------------------------------------------------------------|
B|-7--7--------7--7--------7--7--------7--7--------7--7--------7--7--------7--7--------8--8-------|
G|-x--x--------x--x--------x--x--------x--x--------x--x--------x--x--------x--x--------x--x-------|
D|-x--x--------x--x--------x--x--------x--x--------x--x--------x--x--------x--x--------x--x-------|
A|-7--7--------7--7--------7--7--------7--7--------7--7--------7--7--------7--7--------7--7-------|
E|------------------------------------------------------------------------------------------------|



Chorus:
e|-------12-12-------12-12-------12-12-------12-12||
B|-------15-15-------15-15-------15-15-------15-15||
G|-------12-15-------12-12-------12-12-------12-12|| x 4
D|------------------------------------------------||
A|------------------------------------------------||
E|------------------------------------------------||
+
e|-------7--7--------7--7--------7--7--------7--7-||
B|-------x--x--------x--x--------x--x--------x--x-||
G|-------7--7--------7--7--------7--7--------7--7-|| x 2
D|------------------------------------------------||
A|------------------------------------------------||
E|------------------------------------------------||



Bridge:
e|------------------------------------------------||
B|-------------------------------7----------------||
G|----------------3--2-p0-------------------------|| x 3
D|-------4----------------------------------------||
A|-3-----------3----------/7-----------7--5-\3-h5-||
E|------------------------------------------------||
+
e|------------------------------------------------|
B|-------------------------------7----------------|
G|----------------3--2-p0-------------------------|
D|-------4----------------------------------------|
A|-3-----------3----------/7-----------7--5--5----|
E|------------------------------------------------|



Chorus Lead I:
e|-------12---------------------------------------|
B|-----------------15--------14--------------14h15|
G|------------------------------------------------|
D|------------------------------------------------|
A|------------------------------------------------|
E|------------------------------------------------|
+
e|------------------------------------------------|
B|\12---------------------------------------------|
G|------------------------------------------------|
D|------------------------------------------------|
A|------------------------------------------------|
E|------------------------------------------------|



Chorus Lead II:
e|------------------------------------------------|
B|------------------------------------------------|
G|-------14--------12--------11--------------11h12|
D|------------------------------------------------|
A|------------------------------------------------|
E|------------------------------------------------|
+
e|------------------------------------------------|
B|------------------------------------------------|
G|\8----------------------------------------------|
D|------------------------------------------------|
A|------------------------------------------------|
E|------------------------------------------------|



Final Bar:
e|------------------------------------------------|
B|-7--7-------------------------------------------|
G|-x--x-------------------------------------------|
D|-x--x-------------------------------------------|
A|-7--7-------------------------------------------|
E|------------------------------------------------|



Song Structure:
Intro x 4
Verse x 2
Chorus
Bridge
Verse x 2
Chorus
Intro x 4
Verse x 2
Chorus with Lead I x 2 + Lead II x 1
Bridge x 2
Final Bar



That's it.  Please leave any comments, questions, or requests.  Cheers!
-Bennyshambles78-


less
plus
Add to Songbook Print Version How to play lesson Submit videolesson
Click the best TAGS for this song:
None of them
Contributor: scabmusi Correct

If you can not find the chords or tabs you want, look at our partner E-chords. If you are a premium member, you have total access to our video lessons.

If you find a wrong Bad To Me from Unwound, click the correct button above.

login/signup
my songbooks
my recent views
my submits