S Van Halen

Pretty Woman bass

Van Halen

tools Ultimate Tabs

Start AutoScroll Font Size Down Font Size Up

Find us on Facebook

chords
tabs
bass
ukulele
keyboards
drums
flute
harmonica
guitar pro video
Ultimate-Tabs

Pretty Woman

Tuning : E A D G        Time Signature: 4/4

|--------------------------------|--------2-----------------------|
|------------------------2---3---|4---4-----------4-------2---3---|
|--------------------4-----------|--------------------4-----------|
|--------------------------------|--------------------------------|

 |       |       |       |        |       |       |       |
|--------2---2-------------------|--------2-----------------------|
|4---4-----------4-------2---3---|4---------------4-------2---3---|
|--------------------4-----------|--------------------4-----------|
|--------------------------------|--------------------------------|

 |       |       |       |        |     Oh, pretty|woman...
|--------2---2-------------------|--------2---2-------------------|
|4---4-----------4-------2---3---|4---4-----------4-------2---3---|
|--------------------4-----------|--------------------4-----------|
|--------------------------------|--------------------------------|

 |       |       |       |        |       |       |       |
|--------2-----------------------|--------2-----------------------|
|4---4-----------4-------2---3---|4---------------4-------2---3---|
|--------------------4-----------|--------------------4-----------|
|--------------------------------|--------------------------------|

 |       |       |       |        |       |       |       |
|--------2-----------------------|--------2-----------------------|
|4---------------4-------2---3---|4---------------4-------2---3---|
|--------------------4-----------|--------------------4-----------|
|--------------------------------|--------------------------------|

 |       |       |       |        |       |       |       |
|--------2-----------------------|--------2-----------------------|
|4---4-----------4-------2---3---|4---4-----------4-------2---3---|
|--------------------4-----------|--------------------4-----------|
|--------------------------------|--------------------------------|

 |       |       |       Pretty   woman   |       |       |
|--------2---------------2---3---|--------------------------------|
|4---4-----------4---4-----------|--------0-----------------------|
|--------------------------------|2---2-----------2-------0---1---|
|--------------------------------|--------------------2-----------|

 |   what's the matter with you ? |       |       |       |
|--------------------------------|--------2---2-------------------|
|--------0---0-----------2---3---|4---4-----------4-------2---3---|
|2---2-----------2---4-----------|--------------------4-----------|
|--------------------------------|--------------------------------|

 |       |       | can't make you love me....     |       |
|--------2---2-------------------|--------------------------------|
|4---4-----------4---------------|--------2-----------------------|
|------------------------2---3---|4---4-----------4-------2---3---|
|--------------------4-----------|--------------------4-----------|

 |   no matter what I    |        do.     |       |       |
|--------------------------------|--------------------------------|
|--------2---2-----------2-------|4-------4-------4-------4-------|
|4---4-----------4---4-------4---|--------------------------------|
|--------------------------------|--------------------------------|

 |       |       |       |        |   Oh, pretty woman... |
|--------------------------------|--------2---2-------------------|
|4-------4-------4-------2---3---|4---4-----------4-------2---3---|
|--------------------4-----------|--------------------4-----------|
|--------------------------------|--------------------------------|

 |       |       |       |        |       |       |       |
|--------2-----------------------|--------2----------------------------|
|4---4-----------4-------2---3---|4---4-----------4-------2---3--------|
|--------------------4-----------|--------------------4----------------|
|--------------------------------|-------------------------------------|I
less
plus
Add to Songbook Print Version How to play lesson Submit videolesson
Click the best TAGS for this song:
None of them
Contributor: MussKrum Correct

If you can not find the chords or tabs you want, look at our partner E-chords. If you are a premium member, you have total access to our video lessons.

If you find a wrong Bad To Me from Van Halen, click the correct button above.

login/signup
my songbooks
my recent views
my submits