S Van Halen

When It's Love bass

Van Halen

Album:Van Halen Best of - Vol. 1

Year:1996

tools Ultimate Tabs

Start AutoScroll Font Size Down Font Size Up

Find us on Facebook

chords tabs
bass
ukulele keyboards
drums
flute
harmonica
guitar pro video
Ultimate-Tabs

When It's Love

Made by Karla Gaetz

My guitar teacher tabbed this song out. It is pretty accurate.

Intro:

G|-----------------------------------------------------------------------------|
D|-----------------------------------------------------------------------------|
A|5----0-------------5----0-------------------3--------------------------------|
E|---------2----3--------------2----3----1-------------------------------------|
repeat once(Play the above notes for 4 beats each)

this is part of the intro as well
G|---------------------------------------------------------------------------|
D|------------------------3--------------------------------------------------|
A|----------------3/5--------------------------------------------------------|
E|3--1--3--1--3--3-----------------------------------------------------------|
If you listen to this part you will probably understand it better.

Verse

G|---------------------------------------------------------------------------|
D|---------------------------------------------------------------------------|
A|5555-----------------------------------------------------------------------|
E|----111--33333--5-5--------------------------------------------------------|
repeat 8 times i think

Chorus
G|---------------------------------------------------------------------------|
D|---------------------------------------------------------------------------|
A|5-555----------------------------------------------------------------------|
E|-----5-555--7-777--3-333---------------------------------------------------|
repeat twice

verse
G|---------------------------------------------------------------------------|
D|---------------------------------------------------------------------------|
A|5555-----------------------------------------------------------------------|
E|----111-33333-5-5----------------------------------------------------------|
repeat 6 times

chorus
G|---------------------------------------------------------------------------|
D|---------------------------------------------------------------------------|
A|5-555----------------------------------------------------------------------|
E|-----5-555--7-777--3-333---------------------------------------------------|
repeat three times

bridge

G|---------------------------------------------------------------------------|
D|---------------------------------------------------------------------------|
A|---------------------------------------------------------------------------|
E|11111111--33333333---------------------------------------------------------|
repeat 3 times then play an open A
then go back into the verse
then repeat the bridge 3 times and play an open A
then play chorus 3 times
then play the intro untill the song is finished

/-slide
less
plus
Add to Songbook Print Version How to play lesson Submit videolesson
Click the best TAGS for this song:
None of them
Contributor: forelieb Correct

If you can not find the chords or tabs you want, look at our partner E-chords. If you are a premium member, you have total access to our video lessons.

If you find a wrong Bad To Me from Van Halen, click the correct button above.

login/signup
my songbooks
my recent views
my submits