Vanessa Carlton

A Thousand Miles tab

Vanessa Carlton

Album:Be Not Nobody

Year:2002

tools Ultimate Tabs

Start AutoScroll Font Size Down Font Size Up

Find us on Facebook

Ultimate-Tabs

A Thousand Miles

E|---------------------| 
A|---------------------| 
D|---------------------| 
G|----------------8-6--| 
B|--0--0----0--7-------| 
e|---7--7-6--6---------| 

E|---------------------------| 
A|---------------------------| 
D|---------------------------| 
G|--------------------6-8-6--| 
B|--0--0----0--7-7-7---------| 
e|---7--7-6--6---------------| 

E|-----------------------------------------------| 
A|-----------------------------------------------| 
D|-----------------------------------------------| 
G|----------------8-6-----8-6-4-8-6-4------6-6s4-| 
B|--0--0----0--7------0---------------7----------| 
e|---7--7-6--6-----------------------------------|
less
plus
Add to Songbook Print Version How to play lesson Submit videolesson
Click the best TAGS for this song:
None of them
Contributor: alveRyza Correct

If you can not find the chords or tabs you want, look at our partner E-chords. If you are a premium member, you have total access to our video lessons.

If you find a wrong Bad To Me from Vanessa Carlton, click the correct button above.

login/signup
my songbooks
my recent views
my submits