Warbringer

Combat Shock tab

Warbringer

tools Ultimate Tabs

Start AutoScroll Font Size Down Font Size Up

Find us on Facebook

chords
tabs
bass
ukulele
keyboards
drums
flute
harmonica
guitar pro video
Ultimate-Tabs

Combat Shock

---------------------------------------------------------------------
                             Combat Shock - Warbringer
---------------------------------------------------------------------
Tabbed by: ShredHead396
Email: [email protected]

Band: Warbringer
Song: Combat Shock
Album: War Without End
Tuning: Eb
Difficulty: Intermediate 





Intro Squeal 
eb|----------------------------------------------------|
Bb|----------------------------------------------------|
Gb|--3TSTV~~~~~~~~7TSTV~~~~----------------------------|
Db|----------------------------------------------------|
Ab|----------------------------------------------------|
Eb|----------------------------------------------------|


Intro trem bar depression
eb|-----------------------------------------14fb-14fb~-|
Bb|---3p08p0-------------------------------------------|
Gb|----------------------------------------------------|
Db|----------------------------------------------------|
Ab|----------------------------------------------------|
Eb|----------------------------------------------------|

Riff 1
eb|----------------------------------------------------|
Bb|----------------------------------------------------|
Gb|----------------------------------------------------|
Db|----------------------------------------------------|
Ab|----------------------------------------------------|
Eb|-2-0-0-0-0-0-0-0-0-5-0-0-0-2-0-0-0-0-0-0-5-0-0-0----|

eb|----------------------------------------------------|
Bb|----------------------------------------------------|
Gb|----------------------------------------------------|
Db|----------------------------------------------------|
Ab|----------------------------------------------------|
Eb|-2-0-0-0-0-0-0-5-0-0-0-2-0-0-0-0-0-0-5-0-0-0--------|

Riff 2
eb|----------------------------------------------------|
Bb|----------------------------------------------------|
Gb|----------------------------------------------------|
Db|--------------5-------------------------------------|
Ab|-7-9-10-10--4-3-4-5-3-------------------------------|
Eb|-5-7-8--8---2---2-3-1-------------------------------|

Riff 3
eb|----------------------------------------------------|
Bb|----------------------------------------------------|
Gb|----------------------------------------------------|
Db|----------------------------------------------------|
Ab|-7-0-0-0-0-0-0-9-0-0-0-7-0-0-0-0-0-0-9-0-0-0-0-0-0--|
Eb|----------------------------------------------------|

eb|--------------------------|--------------------------|
Bb|--------------------------|--------------------------|
Gb|--------------------------|--------------------------|
Db|--------------------------|--9-10-12-12--------------|
Ab|-7-0-0-0-0-0-0-9-0-0-0----|--7-8--10-10--------------|
Eb|--------------------------|--------------------------|

Riff 4
e|--------------------------------|----------------------|
Bb|-------------------------------|----------------------|
Gb|-------------------------------|----------------------|
Db|---5--------2-2-2-2---2-2-2-2--|----------------------|
Ab|-4-3-4-5-3--2-2-2-2-5-2-2-2-2--|----------------------|
Eb|-2---2-3-1--0-0-0-0-3-0-0-0-0--|-3-2-1-0--------------|

Riff 5
eb|----------------------------------------------------|
Bb|----------------------------------------------------|
Gb|----------------------------------------------------|
Db|----------------------------------------------------|
Ab|-7---7-----7---7---8--------------------------------|
Eb|--000-00000-000-000---------------------------------|

Riff 6
eb|----------------------------------------------------|
Bb|----------------------------------------------------|
Gb|----------------------------------------------------|
Db|----------------3-----3-0---------------------------|
Ab|-8888-7777-5555-1-----1-0---------------------------|
Eb|------------------0-0-------------------------------|

Riff 7
eb|----------------------------------------------------|
Bb|----------------------------------------------------|
Gb|----------------------------------------------------|
Db|-9-10-7---------------------------------------------|
Ab|-7-8--5---------------------------------------------|
Eb|----------------------------------------------------|
Riff 8
eb|----------------------------------------------------|
Bb|----------------------------------------------------|
Gb|----------------------------------------------------|
Db|-9---9-10-----10-7-------7--9-10-7------------------|
Ab|-7---7-8------8--5-------5--7-8--5------------------|
Eb|--000----0000-----000000----------------------------|











Solo
eb|------------------------------------------15--------|
Bb|-16b-16fb~-16-14-12-14-14-14-12---12-14-----14-12---|
Gb|--------------------------------14---------------12-|
Db|----------------------------------------------------|
Ab|----------------------------------------------------|
Eb|----------------------------------------------------|

eb|----------------------------------------------------|
Bb|----------------------------------------------------|
Gb|-9-9-7-9-9fb-9-7----7-9-10-9-10-12-10-12------------|
Db|-----------------10---------------------------------|
Ab|----------------------------------------------------|
Eb|----------------------------------------------------|

eb|----------------------------------------------------|
Bb|-12fb-12h13p12~~---------11h13h15p13p11-------------|
Gb|----------------10h12h14----------------14p12p10----|
Db|----------------------------------------------------|
Ab|----------------------------------------------------|
Eb|----------------------------------------------------|



eb|----------------------------12-14-15-14-15-17---|
Bb|-------------------11h13h15---------------------|
Gb|----------10h12h14------------------------------|
Db|-14p12p10---------------------------------------|
Ab|------------------------------------------------|
Eb|------------------------------------------------|

eb|-15-17-19-17-15-17-19fb-17-17h18p17p15h17-17-15---|
Bb|--------------------------------------------------|
Gb|--------------------------------------------------|
Db|--------------------------------------------------|
Ab|--------------------------------------------------|
Eb|--------------------------------------------------|

eb|----------------------------------------------------|
Bb|-17-17-18-17~~-18-17-15-----------------------------|
Gb|-----------------------15-17-15-14-15-14------------|
Db|----------------------------------------17-15-14-14~|
Ab|----------------------------------------------------|
Eb|----------------------------------------------------|


eb|-21212121-19191919-18181818-16161616-18181818-------|
Bb|----------------------------------------------------|
Gb|----------------------------------------------------|
Db|----------------------------------------------------|
Ab|----------------------------------------------------|
Eb|----------------------------------------------------|


eb|-16161616-------------------------------------------|
Bb|----------18181818-15151515-17171717-19191919-------|
Gb|----------------------------------------------------|
Db|----------------------------------------------------|
Ab|----------------------------------------------------|
Eb|----------------------------------------------------|

eb|----------------------------------------------------|
Bb|-202020-17~~----------------------------------------|
Gb|--------------7~~-----------------------------------|
Db|--------------7~~-----------------------------------|
Ab|----------------------------------------------------|
Eb|----------------------------------------------------|

Riff 9
eb|----------------------------------------------------|
Bb|----------------------------------------------------|
Gb|----------------------------------------------------|
Db|-------2--------------------------------------------|
Ab|-7-7-7-2---------------------------7---7---7--------|
Eb|-5-5-5-0-0-0-0-0-0-0-0-0-0-0-0-0-0-5-0-5-0-5--------|

Riff 10
eb|-----------------------------|
Bb|-----------------------------|
Gb|-----------------------------|
Db|-----------------------------|
Ab|---7---5---3---3-2-----------|
Eb|-0-5-0-3-0-1-0-1-0-----------|

Riff 11
eb|----------------------------------------------------|
Bb|----------------------------------------------------|
Gb|----------------------------------------------------|
Db|----------------------------------------------------|
Ab|---------------7---7---7----------------------------|
Eb|-0-0-0-0-0-0-0-5-0-5-0-5----------------------------|


Riff 12
eb|------------------------------|--7nh-|
Bb|------------------------------|--7nh-|
Gb|------------------------------|--7nh-|
Db|-9-------9------9-10-7--------|------|
Ab|-7-------7------7-8--5--------|------|
Eb|---000000-000000-------000000-|------|

Ending Chords
eb|-----------------------------|
Bb|-----------------------------|
Gb|-----------------------------|
Db|-----------2-----------------|
Ab|-5-4-5-7-5-2-----------------|
Eb|-3-2-3-5-3-0-----------------|











Song Structure


Intro Squeal x 1
Intro Trem Bar Depression x 1
Riff 1 x 1
Riff 2 x 1
Riff 3 x 1
Riff 4 x 2
Riff 5 x 4
Riff 6 x 1
Riff 7 x 2
Riff 8 x 1
Solo   x 1
Riff 7 x 2
Riff 8 x 1
Riff 9 x 3
Riff 10x 1
Riff 11x 4
Riff 12x 8
Ending Chords x 1








| /   Slide up
| \   Slide down
| h   Hammer-on
| p   Pull-off
| ~   Vibrato
| +   Harmonic
| x   Mute note
| TS  Trem squeal 
| TV~ Trem Vibrato
| fb  Full Bend
| nh  Natural Harmonic

=============================================================================

less
plus
Add to Songbook Print Version How to play lesson Submit videolesson
Click the best TAGS for this song:
None of them
Contributor: ayumadam Correct

If you can not find the chords or tabs you want, look at our partner E-chords. If you are a premium member, you have total access to our video lessons.

If you find a wrong Bad To Me from Warbringer, click the correct button above.

login/signup
my songbooks
my recent views
my submits