Warbringer

Shoot To Kill tab

Warbringer

tools Ultimate Tabs

Start AutoScroll Font Size Down Font Size Up

Find us on Facebook

chords
tabs
bass
ukulele
keyboards
drums
flute
harmonica
guitar pro video
Ultimate-Tabs

Shoot To Kill

Artist:Warbringer
Song:Shoot to Kill
Album:War Without End (2008)

TUNING:STANDARD E
Transcribed by:Brandon Mitchell
If you have any questions or comments email me @:[email protected]
(*I didn't include palm mutes, listen to song it's fairly obvious where they are.*)

Intro (Both Guitars) (0:00-0:22)

e |-----------------------------------------|
b |-----------------------------------------|
g |-----------------------------------------|
d |--7---8~---7---8-~10---7---8~--5---4-----| x3
a |--5---6~---5---6-~-8---5---6~--3---2---3-|
e |----0--------0-----------0-------0---0-1-|

e |----------------------------------------------------|
b |----------------------------------------------------|
g |----------------------------------------------------|
d |--7---8~---7---8-~10---7---8~--5---4------5---4-----|
a |--5---6~---5---6-~-8---5---6~--3---2---3--3---2---3-|
e |----0--------0-----------0-------0---0-1----0---0-1-|

Verse (0:22-0:52)
 Guitar 1

e |--------------------------------------------------|
b |--------------------------------------------------|
g |--------------------------------------------------|
d |--------------------------------------------------|x2
a |-2----2-----------3-3-5---2----2-----------5-5--3-|
e |-0-00-0-0000-0000-1-1-3---0-00-0-0000-0000-3-3--1-|

 Guitar 2

e |--------------------------------------------------|
b |--------------------------------------------------|
g |--------------------------------------------------|
d |--------------------------------------------------|x2
a |-2mute2mute-------3-3-5---2mute2mute-------5-5--3-|
e |-0mute0mute-------1-1-3---0mute2mute-------3-3--1-|

Then Both

e |--------------------------------------------------|
b |--------------------------------------------------|
g |--------------------------------------------------|
d |--------------------------------------------------|x4
a |-2----2-----------3-3-5---2----2-----------5-5--3-|
e |-0-00-0-0000-0000-1-1-3---0-00-0-0000-0000-3-3--1-|

Chorus (0:52-1:09)

Guitar 1

e |-------------------------------------------|
b |-------------------------------------------|
g |-------------------------------------------|
d |-10~---9~---7~---9~------------------------|
a |--8~---7~---5~---7~--------------------8-7-|
e |---------------------000000-0-7-8-10-7-----|

e |-----------------------------------|
b |-----------------------------------|
g |-----------------------------------|
d |-10~---9~---7~---------------------|
a |--8~---7~---5~---2-----------------|
e |-----------------0-000000-00000000-|

e |----------------------------------------------|
b |----------------------------------------------|
g |----------------------------------------------|
d |-10~---9~---7~--------------------------------|
a |--8~---7~---5~---5-------5-------5---5---5//7-|
e |-----------------3-0-0-0-3-0-0-0-3-0-3-0-3//5-|

e |---------------------|
b |---------------------|
g |---------------------|
d |-10~---14~---7~---5~-|
a |--8~---12~---5~---3~-|
e |---------------------|

Guitar 2

e |------------------------------------------------|
b |------------------------------------------------|
g |------------------------------------------------|
d |-10~---9~---7~---9~----------------7---10-9-----|
a |--8~---7~---5~---7~---------7-9-10---9------8-7-|
e |---------------------000000---------------------|

e |-----------------------------------|
b |-----------------------------------|
g |-----------------------------------|
d |-10~---9~---7~---------------------|
a |--8~---7~---5~---2-----------------|
e |-----------------0-000000-00000000-|

e |----------------------------------------------|
b |----------------------------------------------|
g |----------------------------------------------|
d |-10~---9~---7~--------------------------------|
a |--8~---7~---5~---5-------5-------5---5---5//7-|
e |-----------------3-0-0-0-3-0-0-0-3-0-3-0-3//5-|

e |---------------------|
b |---------------------|
g |---------------------|
d |-10~---14~---7~---5~-|
a |--8~---12~---5~---3~-|
e |---------------------|

Play Verse Riff x2 under solo (1:10-1:20)

Verse Riff x2 with vocals

Chorus (1:30-1:51)

Breakdown (1:53-2:13)

Guitar 1

e |----------------------------------------------------------------------------------|
b |----------------------------------------------------------------------------------|
g |----------9-7---------------------------------------------------------------------|
d |-7-9-10-7-----10~---12t9t12t9t12t912t9t11t8t11t8t11t8t11t8t10t7t10t7t10t7t10t7--5-|
a |----------------------------------------------------------------------------------|
e |----------------------------------------------------------------------------------|

e |------------------------------------------|
b |--------------------------------------10--|
g |----------9-7----------------9----7-------|
d |-7-9-10-7-----10~---7-9-10-7---10---9-----|
a |------------------------------------------|
e |------------------------------------------|

Guitar 2

e |------------------------------------------------------------------------------|
b |---------8-7---12t9t12t9t12t9t12t9t11t8t11t8t11t8t11t8t10t7t10t7t10t7t10t7--6-|
g |-5-7-9-5-----9~----------------------------------------------------------------|
d |------------------------------------------------------------------------------|
a |------------------------------------------------------------------------------|
e |------------------------------------------------------------------------------|

e |--------------------------------8-|
b |---------8-7------------8---7-----|
g |-5-7-9-5-----9~-5-7-9-5---9---7---|
d |----------------------------------|
a |----------------------------------|
e |----------------------------------|

Fill
Both Guitars

e |------------|
b |------------|
g |------------|
d |-2-----5----|
a |-0--5--3--3-|
e |----3-----1-|

Bridge (2:13-2:32)

e |-----------------------------------------------------------|
b |-----------------------------------------------------------|
g |-----------------------------------------------------------|
d |-------------------------2-----5----------------2-----5----|x4
a |-------------------------0--5--3--3--2----------0--5--3--3-|
e |-3-000-3-000-3-000-5-000----3-----1--0-000-0000----3-----1-|

Rythmn Under Solo

e |-------------------------------------------|
b |-------------------------------------------|
g |-------------------------------------------|
d |-------------------------------------------|x5
a |-5----5----7----------8----5----7----------|
e |-3-00-3-00-5-00000000-6-00-3-00-5-55555555-|

Chorus (2:51-3:09)

END

less
plus
Add to Songbook Print Version How to play lesson Submit videolesson
Click the best TAGS for this song:
None of them
Contributor: lastPaul Correct

If you can not find the chords or tabs you want, look at our partner E-chords. If you are a premium member, you have total access to our video lessons.

If you find a wrong Bad To Me from Warbringer, click the correct button above.

login/signup
my songbooks
my recent views
my submits