Ween

Among His Tribe tab

Ween

tools Ultimate Tabs

Start AutoScroll Font Size Down Font Size Up

Find us on Facebook

chords
tabs
bass
ukulele
keyboards
drums
flute
harmonica
guitar pro
video
Ultimate-Tabs

Among His Tribe

2
capo on the 2nd fret 

From the album "quebec." It's really pretty simple once you figure out the tuning. 

Intro: 
    ----------->  
C|-0-------------| 
G|-0-------------| 
G|-0-------------| 
C|-0-------------| 
G|-0-------------| 
C|-0-------------| 

verse 1: 
    ---->  ---->  ---->  ----> 
C|-0------0------0------0--------------------------------------------------------| 
G|-0------0------0------0-------------------------0-------------------------0----| 
G|-5------3------2------0-----0----0----0---------0-----0----0----0---------0----| 
C|-0------0------0------0-----4/5--4/5--4/5p0--0--0--0--4/5--4/5--4/5p0--0--0--0-| 
G|-0------0------0------0-----0----0----0---------0--0--0----0----0---------0--0-| 
C|-0------0------0------0-------------------------0-------------------------0----| x2 

He would step out of the night and light a fire among his tribe 
Carving from a bear's tooth, he used the flesh to feed the youth 

    ---->  ----> 
C|-0------0------0--5-5p4-5p4-5p4-0---5-5p4-5p4-5p4-0---5-5p4-5p4-5p4-0---5-5p4-5p4-5p4-0-| 
G|-0------0------0--5-5---5---5---5---5-5---5---5---5---5-5---5---5---5---5-5---5---5---5-| 
G|-0------0------0--0-0---0---0---0---0-0---0---0---0---0-0---0---0---0---0-0---0---0---0-| 
C|-2------0------0--0-0---------------0-0---------------0-0---------------0-0-------------| 
G|-3------2------0--0-----------------0-----------------0-----------------0---------------| 
C|-0------0------0------------------0-----------------0-----------------0-----------------| 

He'd salt it down... 

verse 2: 
    ---->  ---->  ---->  ----> 
C|-0------0------0------0--------------------------------------------------------| 
G|-0------0------0------0-------------------------0-------------------------0----| 
G|-5------3------2------0-----0----0----0---------0-----0----0----0---------0----| 
C|-0------0------0------0-----4/5--4/5--4/5p0--0--0--0--4/5--4/5--4/5p0--0--0--0-| 
G|-0------0------0------0-----0----0----0---------0--0--0----0----0---------0--0-| 
C|-0------0------0------0-------------------------0-------------------------0----| x2 

Sails were made from darkened hide, fish were caught in the lowest tide 
Thought of war kept him strong, he listened for the battle song 

    ---->  ----> 
C|-0------0------0--5-5p4-5p4-5p4-0---5-5p4-5p4-5p4-0---5-5p4-5p4-5p4-0---5-5p4-5p4-5p4-0-| 
G|-0------0------0--5-5---5---5---5---5-5---5---5---5---5-5---5---5---5---5-5---5---5---5-| 
G|-0------0------0--0-0---0---0---0---0-0---0---0---0---0-0---0---0---0---0-0---0---0---0-| 
C|-2------0------0--0-0---------------0-0---------------0-0---------------0-0-------------| 
G|-3------2------0--0-----------------0-----------------0-----------------0---------------| 
C|-0------0------0------------------0-----------------0-----------------0-----------------| 

In the night... 

Instrumental: 
    ---->  ---->  ---->  ----> 
C|-0------0------0------0--------------------------------------------------------| 
G|-0------0------0------0-------------------------0-------------------------0----| 
G|-5------3------2------0-----0----0----0---------0-----0----0----0---------0----| 
C|-0------0------0------0-----4/5--4/5--4/5p0--0--0--0--4/5--4/5--4/5p0--0--0--0-| 
G|-0------0------0------0-----0----0----0---------0--0--0----0----0---------0--0-| 
C|-0------0------0------0-------------------------0-------------------------0----| x2 

    ---->  ----> 
C|-0------0------0--5-5p4-5p4-5p4-0---5-5p4-5p4-5p4-0-| 
G|-0------0------0--5-5---5---5---5---5-5---5---5---5-| 
G|-0------0------0--0-0---0---0---0---0-0---0---0---0-| 
C|-2------0------0--0-0---------------0-0-------------| 
G|-3------2------0--0-----------------0---------------| 
C|-0------0------0------------------0-----------------| 

    ----------->  ----------->  ----------->  ----------->  ----------->  -----------> 
C|-3-------------0-------------3-------------0-------------3-------------0-------------| 
G|-3-------------0-------------3-------------0-------------3-------------0-------------| 
G|-3-------------0-------------3-------------0-------------3-------------0-------------| 
C|-3-------------0-------------3-------------0-------------3-------------0-------------| 
G|-3-------------0-------------3-------------0-------------3-------------0-------------| 
C|-3-------------0-------------3-------------0-------------3-------------0-------------| 

    ----------->  ----> 
C|-3-------------3------0--5-5p4-5p4-5p4-0---5-5p4-5p4-5p4-0---5-5p4-5p4-5p4-0---5-5p4-5p4-5p4-0-| 
G|-3-------------3------0--5-5---5---5---5---5-5---5---5---5---5-5---5---5---5---5-5---5---5---5-| 
G|-3-------------3------0--0-0---0---0---0---0-0---0---0---0---0-0---0---0---0---0-0---0---0---0-| 
C|-3-------------3------0--0-0---------------0-0---------------0-0---------------0-0-------------| 
G|-3-------------3------0--0-----------------0-----------------0-----------------0---------------| 
C|-3-------------3------0------------------0-----------------0-----------------0-----------------| 

verse 3: 
    ---->  ---->  ---->  ----> 
C|-0------0------0------0--------------------------------------------------------| 
G|-0------0------0------0-------------------------0-------------------------0----| 
G|-5------3------2------0-----0----0----0---------0-----0----0----0---------0----| 
C|-0------0------0------0-----4/5--4/5--4/5p0--0--0--0--4/5--4/5--4/5p0--0--0--0-| 
G|-0------0------0------0-----0----0----0---------0--0--0----0----0---------0--0-| 
C|-0------0------0------0-------------------------0-------------------------0----| x2 

All the old would teach the young to heed the word of the master's tongue 
A chosen son would take a bride and light the fire among his tribe 

    ---->  ----> 
C|-0------0------0--5-5p4-5p4-5p4-0---5-5p4-5p4-5p4-0---5-5p4-5p4-5p4-0---5-5p4-5p4-5p4-0-| 
G|-0------0------0--5-5---5---5---5---5-5---5---5---5---5-5---5---5---5---5-5---5---5---5-| 
G|-0------0------0--0-0---0---0---0---0-0---0---0---0---0-0---0---0---0---0-0---0---0---0-| 
C|-2------0------0--0-0---------------0-0---------------0-0---------------0-0-------------| 
G|-3------2------0--0-----------------0-----------------0-----------------0---------------| 
C|-0------0------0------------------0-----------------0-----------------0-----------------| 

And on and on... 

    ----------->  
C|-0~~~~~~~~-----| 
G|-5~~~~~~~~-----| 
G|-0~~~~~~~~-----| 
C|-0~~~~~~~~-----| 
G|-0~~~~~~~~-----| 
C|-0~~~~~~~~-----| 
  
less
plus
Add to Songbook Print Version How to play lesson Submit videolesson
Click the best TAGS for this song:
None of them
Contributor: dramclai Correct

If you can not find the chords or tabs you want, look at our partner E-chords. If you are a premium member, you have total access to our video lessons.

If you find a wrong Bad To Me from Ween, click the correct button above.

login/signup
my songbooks
my recent views
my submits