S Weezer

Only In Dreams (ver. 2) tab

Weezer

tools Ultimate Tabs

Start AutoScroll Font Size Down Font Size Up

Find us on Facebook

chords
tabs
bass
ukulele
keyboards
drums
flute
harmonica
guitar pro
video
Ultimate-Tabs

Only In Dreams (ver. 2)

tabbed by Jason The Great ([email protected]) 
 
INTRO/VERSE 
 
Guitar 1 (acoustic) 
 
eb|-------------------------------------------------| 
Bb|-3--3--3--3--3--3--3--3--3--3--3--3--------------| 
Gb|-0--0--0--0--0--0--0--0--2--2--2--2--5--4--5--4\-| 
Db|-0--0--0--2--2--2--2--2--2--2--2--2--4--4--4--4\-| Repeat as 
Ab|-2--2--2--3--3--3--3--3--0--0--0--0--5--5--5--5\-| Necessary 
Eb|-------------------------------------------------| 
 
Lead Electric Whatnot... 
 
* = Harmonics 
 
eb|-----------------|---------------------------------| 
Bb|-----------------|--------------------------0----0-| 
Gb|------------*12*-|---0-0-----0-0-------0-----------| 
Db|--------*12*-----|-0-----1b2-----6b7r6---10---10---| 
Ab|----*12*---------|---------------------------------| 
Eb|-*12*------------|---------------------------------| 
 
eb|---------------------------------| 
Bb|---------------------------0---0-| 
Gb|-0---0-0-----0-0-------0---------| 
Db|---0-----1b2-----6b7r6---8---8---| 
Ab|---------------------------------| 
Eb|---------------------------------| 
 
eb|-----------------------------------| 
Bb|----------------------------0----0-| 
Gb|-0---0-0-----0-0-------0-----------| 
Db|---0-----1b2-----6b7r6---10---10---| 
Ab|-----------------------------------| 
Eb|-----------------------------------| 
 
eb|---------------------------------| 
Bb|---------------------------0---0-| 
Gb|-0---0-0-----0-0-------0---------| 
Db|---0-----1b2-----6b7r6---8---8---|  
Ab|---------------------------------|  
Eb|---------------------------------| 
 
CHORUS 
 
eb|-----------------------------------| 
Bb|-----------------------------------| 
Gb|-----------------------------------| 
Db|-9-9-7-5-5-5-5-5-10-10-9-7-7-7-7-7-| x2 
Ab|-9-9-7-5-5-5-5-5-10-10-9-7-7-7-7-7-| 
Eb|-7-7-5-3-3-3-3-3--8--8-7-5-5-5-5-5-| 
 
eb|--------------------------------------| 
Bb|--------------------------------------| 
Gb|--------------------------------------| 
Db|-3-3-3-8-8-8-8-8-5-5-5-10-10-10-10-10-| 
Ab|-3-3-3-8-8-8-8-8-5-5-5-10-10-10-10-10-| 
Eb|-1-1-1-6-6-6-6-6-3-3-3--8--8--8--8--8-| 
 
eb|-----------------------------| 
Bb|-----------------------------| 
Gb|-----------------------------| 
Db|-9-9-7-5-5-5-5-5-10-10-11-12-| 
Ab|-9-9-7-5-5-5-5-5-10-10-11-12-| 
Eb|-7-7-5-3-3-3-3-3--8--8--9-10-| 
 
VERSE 
 
CHORUS 
 
QUIET-ISH PART 
 
eb|--------------| 
Bb|--------------| 
Gb|-0---0-----0--| 
Db|--------4-----| a couple times 
Ab|--------------| 
Eb|--------------| 
    on-ly in dreams 
 
THE OTHER CHORUS-LIKE PART 
 
eb|---------------------------------| 
Bb|---------------------------------| 
Gb|-4-4-4/9-9-9-9-9\2-2-2-2/7-7-5-5-| 
Db|---------------------------------| 
Ab|-2-2-2/7-7-7-7-7\0-0-0-0-5-5-3-3-| 
Eb|---------------------------------| 
 
(variation played later on second guitar 
 
eb|------------------------------------| 
Bb|------------------------------------| 
Gb|-4-4-4/9-9-12-12-12\2-2-2-2/7-7-5-5-| 
Db|------------------------------------| 
Ab|-2-2-2/7-7-10-10-10\0-0-0-0-5-5-3-3-| 
Eb|------------------------------------| 
 
eb|----------------------------------------| 
Bb|----------------------------------------| 
Gb|-4-4-4/12-12-12-12-12\5-5-5-5/11-11-9-9\| 
Db|----------------------------------------| 
Ab|-2-2-2/10-10-10-10-10\3-3-3-3/-9--9-7-7\| 
Eb|----------------------------------------| 
 
eb|---------------------------------------| 
Bb|---------------------------------------| 
Gb|-\4-4-4/12-12-12-12-12\2-2-2-2/7-7-5-5-| 
Db|---------------------------------------| 
Ab|-\2-2-2/10-10-10-10-10\0-0-0-0-5-5-3-3-| 
Eb|---------------------------------------| 
 
eb|------------------------------------------| 
Bb|------------------------------------------| 
Gb|-4-4-4/12-12-12-12-12\5-5-5-5/11-11-9-9-7-| 
Db|------------------------------------------| 
Ab|-2-2-2/10-10-10-10-10\3-3-3-3/-9--9-7-7-5-| 
Eb|------------------------------------------| 
 
OTHER QUIETISH PART 
 
(sorry if this is hard to read) 
 
let ring throughout 
 
eb|---|-7---|  |-8---8---8----|-7---|  |-7---x-----8---8------| 
Bb|---|--8--|  |--8---8---8---|--8--|  |--8-x----8-------8----| 
Gb|-7-|---7-|x6|---9---9--(0)-|---7-|x5|-------9-----9----(0)-| 
Db|---|-----|  |--------------|-----|  |----------------------| 
Ab|---|-----|  |--------------|-----|  |----------------------| 
Eb|---|-----|  |--------------|-----|  |----------------------| 
 
eb|-7---|  |---7--7--------8---8--|-7---|  |-------7---7---8---8---8-| 
Bb|--8--|  |-------8--------------|--8--|  |--------8---8---8-----8--| 
Gb|---7-|x4|-7--7---7--8h9---9--0-|---7-|x4|-8-(8)---7---0---9---9---| 
Db|-----|  |----------------------|-----|  |------7------------------| 
Ab|-----|  |----------------------|-----|  |-------------------------| 
Eb|-----|  |----------------------|-----|  |-------------------------| 
 
the end of this song, the build up part and the solo and all that stuff 
is very hard, so i didn't bother trying to tab it... because to be 
honest, i can't even play it, but this is the part i CAN play and I 
know it's more acurate than what's already posted  
less
plus
Add to Songbook Print Version How to play lesson Submit videolesson
Click the best TAGS for this song:
None of them
Contributor: pinaROCA Correct

If you can not find the chords or tabs you want, look at our partner E-chords. If you are a premium member, you have total access to our video lessons.

If you find a wrong Bad To Me from Weezer, click the correct button above.

login/signup
my songbooks
my recent views
my submits