S Weezer

Only In Dreams (ver. 3) tab

Weezer

tools Ultimate Tabs

Start AutoScroll Font Size Down Font Size Up

Find us on Facebook

chords
tabs
bass
ukulele
keyboards
drums
flute
harmonica
guitar pro
video
Ultimate-Tabs

Only In Dreams (ver. 3)

by Danielle [email protected] 
 
 
Bass part arranged for guitar 
----------------------------------------------------------------------- 
----------------------------------------------------------------------- 
----------------------------------------------------------------------- 
--------0h2-2-2-2-2p0---------0-0-------------------------------------- 
--2-2-2---------------0-0-0-0-----3--3--------------------------------- 
----------------------------------------------------------------------- 
 
Intro: G C A D 
----------------------------------------------------------------------- 
----------------------------------------------------------------------- 
-0---0-0---0-0-1/2-0-5-4-5-4---0---0-0---0-0-1/2-0-3-4-3-4------------- 
---2-----2-----------------------2-----2------------------------------- 
----------------------------------------------------------------------- 
----------------------------------------------------------------------- 
 
G   C         A      D 
You can't resist her 
G     C       A     D 
She's in your bone 
G   C        A     D 
She is your marrow 
G      C       A   D 
and your ride home 
 
Harmonics 
----------------------------------------------------------------------- 
----------------------------------------------------------------------- 
------------------12--------------------------------------------------- 
--12------12----------------------------------------------------------- 
------12------12------------------------------------------------------- 
----------------------------------------------------------------------- 
 
You can't avoid her 
She's in the air 
In between molecules of oxygen 
and carbon dioxide 
 
B B A G 
         Only in dreams 
   C        B  A 
We see what it means 
B B A G 
         Reach out our hands 
C       B  A 
Hold on to her's 
F               G 
    But when we wake 
     C               B B A G 
It's all been erased 
G              C C C# D 
and so it seems 
 
only in dreams 
 
 
You walk up to her 
Ask her to dance 
She says "hey baby, 
I just might take the chance" 
 
You say "It's a good thing 
that you float in the air 
that way there's no way 
I will crush your pretty toenails into a thousand pieces." 
 
               B E A D C 
Only in Dreams 
 
--7-------7------7------8-----8------7--------------------------------- 
----8-------8------8------8-----8------8------------------------------- 
------7-------7------7------7-----7------7----------------------------- 
----------------------------------------------------------------------- 
----------------------------------------------------------------------- 
-----------------------------------------------------------------------  
less
plus
Add to Songbook Print Version How to play lesson Submit videolesson
Click the best TAGS for this song:
None of them
Contributor: simomfor Correct

If you can not find the chords or tabs you want, look at our partner E-chords. If you are a premium member, you have total access to our video lessons.

If you find a wrong Bad To Me from Weezer, click the correct button above.

login/signup
my songbooks
my recent views
my submits