Weezer

Peace tab

Weezer

Album:Make Believe

Year:2005

tools Ultimate Tabs

Start AutoScroll Font Size Down Font Size Up

Find us on Facebook

chords
tabs
bass
ukulele keyboards
drums
flute
harmonica
guitar pro
video
Ultimate-Tabs

Peace

hello. 
 
peace by weezer 
STANDARD TUNING 
 
intro / Chorus gtr. 1 
|-----------------------------------| 
|-----------------------------------| 
|--14----12-------------------------| 
|----14----12--14----12---12-12-10--| 
|----------------15----12-----------| 
|-----------------------------------| 
 
|--------------------------------------------| 
|--------------------------------------------| 
|--14----12----------------------------------| 
|----14----12--14----12---12-12r-10----------| 
|----------------15----12-----------12-10----| 
|--------------------------------------------| 
 
intro / verse gtr. 2 - play these 2 chords 
|-----| |-----| 
|--1--| |--1--| 
|--0--| |--2--|this is an  
|--2--| |--2--|acoustic guitar. 
|--3--| |--0--| 
|-----| |-----| 
   C      Am 
 
Chorus gtr. 2 - play these 2 chords 
|-----| |-----| 
|-----| |-----| 
|--5--| |--2--|this part is on eletric. 
|--5--| |--2--| 
|--3--| |--0--| 
|-----| |-----| 
 
gtr. 1 is playing intro. 
 
ending 
|--------------| 
|----------1~--| 
|----------0~--| 
|----------2~--| 
|----------3~--| 
|--------------| 
"Whoa oh oh oh" 
 
 ~enjoy~ 
 
\        / 
 \  /\  / 
  \/  \/ eezer! 
   
  
less
plus
Add to Songbook Print Version How to play lesson Submit videolesson
Click the best TAGS for this song:
None of them
Contributor: stigSeem Correct

If you can not find the chords or tabs you want, look at our partner E-chords. If you are a premium member, you have total access to our video lessons.

If you find a wrong Bad To Me from Weezer, click the correct button above.

login/signup
my songbooks
my recent views
my submits