S Westlife

Mandy tab

Westlife

Album:Turnaround

Year:2004

tools Ultimate Tabs

Start AutoScroll Font Size Down Font Size Up

Find us on Facebook

chords
tabs
bass
ukulele keyboards
drums
flute
harmonica
guitar pro
video
Ultimate-Tabs

Mandy

TRANSCRIBED BY RUDY GUZMAN 
 
 
[email protected] 
 
eb:--------------2------------------------------------2--2-2-----2-2-2-4-4-------------| 
Bb:-----4-4--2---2--2-4----------4-4--2-2---4-2-2-4-4----2-2---2---2-2-2-2-4-------4---| 
Gb:---3--------3--------4-3----3-3-3--3-3---3-3-3-3-3--------3---------------3---3-----| 
Db:-4------------------------4---4-4--4-4-4-4-4-4-4-4--------------------------4-------| 
Ab:------------------------------------------------------------------------------------| 
Eb:------------------------------------------------------------------------------------| 
 
eb:-7--9--11--11---11-12------------------------| 
Bb:-5---------7--7----7--7---7--7-7-7---------7-| 
Gb:------------------------9----9-9---9---------| 
Db:-------------------------------------9---9---| 
Ab:---------------------------------------7-----| 
Eb:---------------------------------------------| 
 
 I remember all my life... 
----------2-----2--4-----2---------|       
-4-4------4-4---2--4--2--4--4------|       
-4---4----4--4--4--4--4--4--4-4----|       
-4-----4--4--------4--4--4--4---4--|       
-2-----------------2--2--2--2------|       
-----------------------------------|       
 
gt2 
-2--2--2--2--2--2--2--2--2--2--2-|      
-4--4--4--4--4--4--4--4--4--4--4-|       
-4--4--4--4--4--4--4--4--4--4--4-|       
-4--4--4--4--4--4--4--4--4--4--4-|      
-2--2--2--2--2--2--2--2--2--2--2-|     
---------------------------------|      
 
 
 Shadows of a man, a face through window crying in the night, the night goes in 
-4------------4--4---2---------2-----------0----0------0-------2-----2---2--2--| 
-5-5------5---5--5---4--4--4---------------2------2----2-------2--2--2---2--2--| 
-6------------6--6---4-------4-------------2--2-----2--2-------3--3--3---3--3--| 
-6-----6------6--6---4---------------------2-----------2-------4--4--4---4--4--| 
-4------------4--4---2---------------------0-----------0-------4--4--4---4--4--| 
---------------------------------------------------------------2---------2--2--| 
 
 tomorrow just another day...  
----------2-----2--4-----2---------|       
-4-4------4-4---2--4--2--4--4------|       
-4---4----4--4--4--4--4--4--4-4----|       
-4-----4--4--------4--4--4--4---4--|       
-2-----------------2--2--2--2------|       
-----------------------------------|       
 
gt2 
-2--2--2--2--2--2--2--2--2--2--2-|      
-4--4--4--4--4--4--4--4--4--4--4-|       
-4--4--4--4--4--4--4--4--4--4--4-|       
-4--4--4--4--4--4--4--4--4--4--4-|      
-2--2--2--2--2--2--2--2--2--2--2-|     
---------------------------------|   
 
looking in their eyes....                  i never realize    how happy u make me 
-4------------4--4---2---------2-----------0----0------0-------2-----2---2--2--| 
-5-5------5---5--5---4--4--4---------------2------2----2-------2--2--2---2--2--| 
-6------------6--6---4-------4-------------2--2-----2--2-------3--3--3---3--3--| 
-6-----6------6--6---4---------------------2-----------2-------4--4--4---4--4--| 
-4------------4--4---2---------------------0-----------0-------4--4--4---4--4--| 
---------------------------------------------------------------2---------2--2--| 
 
oh mandy    when you came and you gave what i?ve taken... 
-2--2--2--2--2--2-----4--4--4-4-4--0--0-0-0-0-0---2--2-2-2-2-2-|  
-4--4--4--4--4--4-----4--4--4-4-4--0--0-0-0-0-0---2--2-2-2-2-2-|  
-4--4--4--4--4--4-----4--4--4-4-4--0--0-0-0-0-0---2--2-2-2-2-2-|     
-4--4--4--4--4--4-----6--6--6-6-6--2--2-2-2-2-2---4--4-4-4-4-4-|      
-2--2--2--2--2--2-----6--6--6-6-6--2--2-2-2-2-2---4--4-4-4-4-4-|       
----------------------4--4--4-4-4--0--0-0-0-0-0---2--2-2-2-2-2-|      
 
 
eb:--------------------------2---------------2-2--------2-----2-7---| 
Bb:-4-----4--2---4--2----------2-------4-4---4-4---4----2---2-------| 
Gb:---3-----------------4-----------3--3-3---3-3-----3--------------| 
Db:-----4------------------4------4----4-4---4-4--------------------| 
Ab:-----------------------------------------------------------------| 
Eb:-----------------------------------------------------------------| 
 
standing on the edge of time... 
----------2-----2--4-----2---------|       
-4-4------4-4---2--4--2--4--4------|       
-4---4----4--4--4--4--4--4--4-4----|       
-4-----4--4--------4--4--4--4---4--|       
-2-----------------2--2--2--2------|       
-----------------------------------|       
 
gt2 
-2--2--2--2--2--2--2--2--2--2--2-|      
-4--4--4--4--4--4--4--4--4--4--4-|       
-4--4--4--4--4--4--4--4--4--4--4-|       
-4--4--4--4--4--4--4--4--4--4--4-|      
-2--2--2--2--2--2--2--2--2--2--2-|     
---------------------------------|  
 
caught up in a world with open.... 
-4------------4--4---2---------2-----------0----0------0-------2-----2---2--2--| 
-5-5------5---5--5---4--4--4---------------2------2----2-------2--2--2---2--2--| 
-6------------6--6---4-------4-------------2--2-----2--2-------3--3--3---3--3--| 
-6-----6------6--6---4---------------------2-----------2-------4--4--4---4--4--| 
-4------------4--4---2---------------------0-----------0-------4--4--4---4--4--| 
---------------------------------------------------------------2---------2--2--| 
 
oh mandy    when you came and you gave what i?ve taken... 
-2--2--2--2--2--2-----4--4--4-4-4--0--0-0-0-0-0---2--2-2-2-2-2-|  
-4--4--4--4--4--4-----4--4--4-4-4--0--0-0-0-0-0---2--2-2-2-2-2-|  
-4--4--4--4--4--4-----4--4--4-4-4--0--0-0-0-0-0---2--2-2-2-2-2-|     
-4--4--4--4--4--4-----6--6--6-6-6--2--2-2-2-2-2---4--4-4-4-4-4-|      
-2--2--2--2--2--2-----6--6--6-6-6--2--2-2-2-2-2---4--4-4-4-4-4-|       
----------------------4--4--4-4-4--0--0-0-0-0-0---2--2-2-2-2-2-|   
 
solo 
:------------------------------------------------------------------| 
:------------------------------------------------------------------| 
:-13--13-15-16--15~~~--15-16-18--16~~~~--16-18-20-20--21--18-16-18-| 
:------------------------------------------------------------------| 
:------------------------------------------------------------------| 
:------------------------------------------------------------------| 
 
yesterday is a dream... 
-4------------4--4---2---------2-----------0----0------0-------2-----2---2--2--| 
-5-5------5---5--5---4--4--4---------------2------2----2-------2--2--2---2--2--| 
-6------------6--6---4-------4-------------2--2-----2--2-------3--3--3---3--3--| 
-6-----6------6--6---4---------------------2-----------2-------4--4--4---4--4--| 
-4------------4--4---2---------------------0-----------0-------4--4--4---4--4--| 
---------------------------------------------------------------2---------2--2--| 
 
oh mandy    when you came and you gave what i?ve taken... 
-2--2--2--2--2--2-----4--4--4-4-4--0--0-0-0-0-0---2--2-2-2-2-2-|  
-4--4--4--4--4--4-----4--4--4-4-4--0--0-0-0-0-0---2--2-2-2-2-2-|  
-4--4--4--4--4--4-----4--4--4-4-4--0--0-0-0-0-0---2--2-2-2-2-2-|     
-4--4--4--4--4--4-----6--6--6-6-6--2--2-2-2-2-2---4--4-4-4-4-4-|      
-2--2--2--2--2--2-----6--6--6-6-6--2--2-2-2-2-2---4--4-4-4-4-4-|       
----------------------4--4--4-4-4--0--0-0-0-0-0---2--2-2-2-2-2-| 
 
oh mandy... 
-4--4--4-----6--6--6-------2--2--2----4---4---4--------|       
-6--6--6-----6--6--6-------2--2--2----4---4---4--------| 
-6--6--6-----6--6--6-------3--3--3----4---4---4--------|       
-6--6--6-----8--8--8-------4--4--4----6---6---6--------| 
-4--4--4-----8--8--8-------4--4--4----6---6---6--------|     
-------------6--6--6-------2--2--2----4---4---4--------| 
 
 
less
plus
Add to Songbook Print Version How to play lesson Submit videolesson
Click the best TAGS for this song:
None of them
Contributor: saraPata Correct

If you can not find the chords or tabs you want, look at our partner E-chords. If you are a premium member, you have total access to our video lessons.

If you find a wrong Bad To Me from Westlife, click the correct button above.

login/signup
my songbooks
my recent views
my submits