White Stripes

The Hardest Button to Button tab

White Stripes

tools Ultimate Tabs

Start AutoScroll Font Size Down Font Size Up

Find us on Facebook

Ultimate-Tabs

The Hardest Button to Button

 
Intro: 
e------------------------------------------------- 
b------------------------------------------------- 
g-----------5---------------5---------------5----- 
d---7--------5------7--------5------7--------5---- 
a----7----3---3------7----3---3------7----3---3--- 
e-5---5-----------5---5-----------5---5----------- 
 
 
e------------------ 
b------------------ 
g---4-------7------ 
d----4-------7-----   3X 
a-2---2---5---5---- 
e------------------ 
 
 
e------------------------------------------------- 
b------------------------------------------------- 
g-----------5---------------5---------------5----- 
d---7--------5------7--------5------7--------5---- 
a----7----3---3------7----3---3------7----3---3--- 
e-5---5-----------5---5-----------5---5----------- 
 
e------------------ 
b------------------ 
g---4-------3------   1X 
d----4-------3-----    
a-2---2---1---1---- 
e------------------ 
 
 
e---------------------- 
b---------------------- 
g------------55xxx555-- 
d-77xxx777---55xxx555--  3x 
a-77xxx777---33xxx333-- 
e-55xxx555------------- 
 
 
e---------------------- 
b---------------------- 
g-44xxx444---33xxx333-- 
d-44xxx444---33xxx333--  1x 
a-22xxx222---11xxx111-- 
e---------------------- 
 
 
e-------------- 
b-------------- 
g--------5555-- 
d-7777---5555--  3x 
a-7777---3333-- 
e-5555--------- 
 
e-------------- 
b-------------- 
g-4444---3333-- 
d-4444---3333--  1x 
a-2222---1111-- 
e-------------- 
 
 
e------------------------------------------------- 
b------------------------------------------------- 
g-----------5---------------5---------------5----- 
d---7--------5------7--------5------7--------5---- 
a----7----3---3------7----3---3------7----3---3--- 
e-5---5-----------5---5-----------5---5----------- 
 
 
e------------------ 
b------------------ 
g---4-------7------ 
d----4-------7-----   1x 
a-2---2---5---5---- 
e------------------ 
 
 
e------------------------------------------------- 
b------------------------------------------------- 
g-----------5---------------5---------------5----- 
d---7--------5------7--------5------7--------5---- 
a----7----3---3------7----3---3------7----3---3--- 
e-5---5-----------5---5-----------5---5----------- 
 
 
e------------------ 
b------------------ 
g---4-------3------ 
d----4-------3-----   1X 
a-2---2---1---1---- 
e------------------ 
 
e---------------------- 
b---------------------- 
g------------55xxx555-- 
d-77xxx777---55xxx555--  3x 
a-77xxx777---33xxx333-- 
e-55xxx555------------- 
 
 
e---------------------- 
b---------------------- 
g-44xxx444---33xxx333-- 
d-44xxx444---33xxx333--  1x 
a-22xxx222---11xxx111-- 
e---------------------- 
 
e-------------- 
b-------------- 
g--------5555-- 
d-7777---5555--  7x 
a-7777---3333-- 
e-5555--------- 
 
e-------------- 
b-------------- 
g-4444---3333-- 
d-4444---3333--  1x 
a-2222---1111-- 
e-------------- 
 
e------------------------------- 
b------------------------------- 
g----------------5555----------- 
d-7777-----------5555-----------  2x 
a-7777-----------3333-3-3-3-3-3- 
e-5555-5-5-5-5-5---------------- 
 
e-------------- 
b-------------- 
g--------5555-- 
d-7777---5555-- 1x  
a-7777---3333-- 
e-5555--------- 
 
e------------------------------- 
b------------------------------- 
g----------------5555----------- 
d-7777-----------5555-----------  1x 
a-7777-----------3333-3-3-3-3-3- 
e-5555-5-5-5-5-5---------------- 
 
 
Final: 
 
e-------- 
b-------- 
g-4444--- 
d-4444---  
a-5555--- 
e-------- 
 
 
_______________________________________________________ 
Contribuição: Rafael Garcia Busato([email protected]) 
 
less
plus
Add to Songbook Print Version How to play lesson Submit videolesson
Click the best TAGS for this song:
None of them
Contributor: lildRgco Correct

If you can not find the chords or tabs you want, look at our partner E-chords. If you are a premium member, you have total access to our video lessons.

If you find a wrong Bad To Me from White Stripes, click the correct button above.

login/signup
my songbooks
my recent views
my submits