Wild Cherry

Play That Funky Music tab

Wild Cherry

tools Ultimate Tabs

Start AutoScroll Font Size Down Font Size Up

Find us on Facebook

chords
tabs
bass ukulele keyboards
drums
flute
harmonica
guitar pro video
Ultimate-Tabs

Play That Funky Music



E7(9)=X,7,6,7,7,X
G7(9)=X,10,9,10,10,X
A7(9)=X,12,11,12,12,X
Bb7=6,8,6,7,6,6
C7(9)=X,3,2,3,3,X
B7(9+)=X,2,1,2,3,X
Eb7(9)=X,6,5,6,6,X
F#7(9)=X,9,8,9,9,X
F7(9)=X,8,7,8,8,X


Guitar 1:  

Intro Riff 1:  

e|---------------------------------------------------|  
B|---------------------------------------------------|  
G|---------------------------------------------------|  
D|---------------------------------------------------|  
A|------------7------5-----7----------------5------7-|  
E|-0-----0------------------------5h7----------------| (2x)  

Pre-Chorus Riff 2:  

e|------------------------------------------------------|  
B|------------------------------------------------------|  
G|------------------------------------------------------|  
D|------------------------------------------------------|  
A|5----5h7------7-----5-----5h7-------7-------5-----5h7-|  
E|------------------------------------------------------|  

Chorus Riff 3:  

e|---------------------------------------------------|  
B|---------------------------------------------------|  
G|---------------------------------------------------|  
D|-------------5------3------5------------3---------5|  
A|--------------------------------3h5----------------|  
E|-3-----3-------------------------------------------|(2x)  

e|----------------------------|  
B|----------------------------|  
G|----------------------------|  
D|-------------8-----6------8-|  
A|----------------------------|  
E|-6-----6--------------------|  

Solo:  

e|---------------------------------------------------|  
B|---------------------------------------------------|  
G|---------------------------------------------------|  
D|---------------------------------------------------|  
A|-------------7-----5-----7---------------5------7--|  
E|-0------0-------------------------5h7--------------| (2x)  

End Music:  

e|----------------------------------------------------|  
B|----------------------------------------------------|  
G|----------------------------------------------------|  
D|-------5--3--5-------3--5--------5--3--5-------3----|  
A|----------------3h5-----------------------3h5-----5-|  
E|-3--3----------------------3--3---------------------|(2x)  

e|----------------------------------------------------|  
B|----------------------------------------------------|  
G|----------------------------------------------------|  
D|-------------7-----5-----7-----------------5------7-|  
A|--------------------------------5h7-----------------|  
E|-5-----5--------------------------------------------| (2x)  

Guitar 2:  

Intro Riff 1: E7(9) Eb7(9) E7(9) F#7(9) F7(9) (2x)  

Riff 2: E7(9) Eb7(9) E7(9) F#7(9) F7(9)  

Pre-Chorus Riff 3: E7(9) F7(9) F#7(9)   

Chorus: G7(9) A7(9) Ab7(9) (3x) B7 C7(9) B7(9+)  

Pré-Solo: E7(9) Eb7(9) E7(9) F#7(9) F7(9)  

Solo: E7(9) Eb7(9) E7(9) F#7(9) F7(9)  

e|---------------------------------15b17-15b17-15b17rb15-12----|  
B|----------------15b17~~~~rb15-12--------------------------15-|  
G|-------12-14-12----------------------------------------------|  
D|-12h14-------------------------------------------------------|  
A|-------------------------------------------------------------|  
E|-------------------------------------------------------------|  

e|-12--------12----12--------------------12----12-------15-|  
B|----15b17--15b17-15b17-15-12-15b17rb15----15----15b17----|  
G|---------------------------------------------------------|  
D|---------------------------------------------------------|  
A|---------------------------------------------------------|  
E|---------------------------------------------------------|  

e|-------15-------15-------15---------------------------------|  
B|-15b17----15b17----15b17----15b17-15-12--------------12-----|  
G|----------------------------------------15-14-12-----12-----|  
D|-------------------------------------------------14------14-|  
A|------------------------------------------------------------|  
E|------------------------------------------------------------|  

e|-----------------------15b17--12-12-17b19-17b19rb17-15b----15-|  
B|----------15b17rb15-12----------------------------------17----|  
G|-12-12-12-----------------------------------------------------|  
D|--------------------------------------------------------------|  
A|--------------------------------------------------------------|  
E|--------------------------------------------------------------|  

e|----------15-------15-------15-17b19rb17-15------|  
B|-17-15-17----15-17----15-17-----------------17~~-|  
G|-------------------------------------------------|  
D|-------------------------------------------------|  
A|-------------------------------------------------|  
E|-------------------------------------------------|  

Chorus: G7(9) A7(9) (3x) G7(9) Ab7(9) B7 C7(9) B7(9+)  

End Music: A7(9)  Ab7(9) A7(9) B7(9) Bb7(9) A7(9)  
 
less
plus
Add to Songbook Print Version How to play lesson Submit videolesson
Click the best TAGS for this song:
None of them
Contributor: pat_pat_ Correct

If you can not find the chords or tabs you want, look at our partner E-chords. If you are a premium member, you have total access to our video lessons.

If you find a wrong Bad To Me from Wild Cherry, click the correct button above.

login/signup
my songbooks
my recent views
my submits