tools Ultimate Tabs

Start AutoScroll Font Size Down Font Size Up

Find us on Facebook

chords
tabs
bass
ukulele
keyboards
drums
flute
harmonica
guitar pro
video
Ultimate-Tabs

Boom

These two parts are basically the only time the guitar plays. The rest is bass.


Riff

e|------------------------------------------------------------------|
B|------------------------------------------------------------------|
G|------------------------------------------------------------------|
D|------------------------------------------------------------------| x3
A|-10-------10-10-10-10-------9--------7--------7-------------------|
E|-------------------------------------------------------0----------|

e|------------------------------------------------------------------|
B|------------------------------------------------------------------|
G|------------------------------------------------------------------|
D|------------------------------------------------------------------|
A|-5--------5--5--5--5--------7--------7--------7-------------------|
E|-------------------------------------------------------0----------|


Pre-Chorus
        Em               G               
I said, hey, uh huh, you can't stop me
          Bm               A                
'Cause my pain, uh huh, is gasoline (Ooh)
        Em            G        
I can't wait, no, for nobody
       Bm                   A         
If you break my heart, it's 1, 2, 3
N.C.              
Boom boom boom
less
plus
Add to Songbook Print Version How to play lesson Submit videolesson
Click the best TAGS for this song:
None of them
Contributor: Anonymous Correct

If you can not find the chords or tabs you want, look at our partner E-chords. If you are a premium member, you have total access to our video lessons.

If you find a wrong Bad To Me from X Ambassadors, click the correct button above.

login/signup
my songbooks
my recent views
my submits