Yelle

A Cause Des Garcons bass

Yelle

tools Ultimate Tabs

Start AutoScroll Font Size Down Font Size Up

Find us on Facebook

chords
tabs
bass
ukulele
keyboards
drums
flute
harmonica
guitar pro
video
Ultimate-Tabs

A Cause Des Garcons

-------------------------------------------------------------------------------
			    A Cause Des Garcons - YELLE (TEPR Remix) http://www.yelle.fr/
-------------------------------------------------------------------------------

Tabbed By : hughcanbefound
e-mail: hughcanbefound at gmail dot com

Tuning: Standard

G|-------------------------|
D|-----------3-5-----------|
A|-5-5-0-3-5-----5-0-3-4-5-|
E|-------------------------|

G|-------------------------|
D|-----------3-5-----------|
A|-5-5-0-3-5-----5-0-3-4-7-|
E|-------------------------|

G|-------------------------|
D|-----------5-7-----------|
A|-7-7-2-5-7-----7-0-4-5-6-|
E|-------------------------|

G|-------------------------|
D|-----------4-6-----------|
A|-6-6-1-4-6-----6-1-3-4-5-|
E|-------------------------|

This is such a tune that I had to tab it even though it's just a synth bass that plays it.
It's not easy to play, but after a lot of practice (for me at least) I got it sorted.

I haven't even tried to write the rhythm in here, because I had such a hard time trying 
enter it into my MIDI editor...
To watch the video go to www.youtube.com/watch?v=bytf3gZMFkY. That is some top-quality 
dancing!

Enjoy.
===============================================================================
less
plus
Add to Songbook Print Version How to play lesson Submit videolesson
Click the best TAGS for this song:
None of them
Contributor: jmarmart Correct

If you can not find the chords or tabs you want, look at our partner E-chords. If you are a premium member, you have total access to our video lessons.

If you find a wrong Bad To Me from Yelle, click the correct button above.

login/signup
my songbooks
my recent views
my submits