tools Ultimate Tabs

Start AutoScroll Font Size Down Font Size Up

Find us on Facebook

chords
tabs
bass
ukulele
keyboards
drums
flute
harmonica
guitar pro
video
Ultimate-Tabs

fish

har=harmonic note 
 
intro: 
|-14p12----12-14p12----12-14p12----12-14p12----| 
|-------16----------16----------16----------16-| 
|----------------------------------------------| 
|----------------------------------------------| 
|----------------------------------------------| 
|----------------------------------------------| 
 
Chorus (This is really for bass, but can also be played on guitar): 
|------------------------------------| 
|------------------------------------| 
|-------------12har------------19har-| 
|---------12har------------19har-----| 
|-----12har------------19har---------| 
|-12har------------19har-------------| 
 
Later, a second bass line does this: 
|--------------------------------------------| 
|--------------------------------------------| 
|--------------------------------------------| 
|------12har--12har-12har-------19har--19har-| 
|------12har--12har-12har-------19har--19har-| 
|-12har-------------------19har--------------| 
 
Guitar 1: 
|--------------------------------------------------------| 
|--------------------------------------------------------| 
|--------------------------------------------------------| 
|-12---11-9--11--9--7-9---7-5-7--5-4-5--4-2---0--2--4--4-| 
|-14---12-10-12--10-9-10--9-7-9--7-5-7--5-4---2--4--5--5-| 
|--------------------------------------------------------| 
 
Right after Guitar 1, Guitar 2 does this: 
|---------------------------------------------| 
|---------------------------------------------| 
|---------------------------------------------| 
|-12p9--9-9-9\7--7-7-7\5--5-5-5\4--4-4-4\2--0-| 
|---------------------------------------------| 
|---------------------------------------------| 
 
less
plus
Add to Songbook Print Version How to play lesson Submit videolesson
Click the best TAGS for this song:
None of them
Contributor: j_suhayl Correct

If you can not find the chords or tabs you want, look at our partner E-chords. If you are a premium member, you have total access to our video lessons.

If you find a wrong Bad To Me from Yes, click the correct button above.

login/signup
my songbooks
my recent views
my submits