Yes

Mood for a Day tab

Yes

Album:Fragile

Year:1971

tools Ultimate Tabs

Start AutoScroll Font Size Down Font Size Up

Find us on Facebook

chords
tabs
bass
ukulele
keyboards
drums
flute
harmonica
guitar pro video
Ultimate-Tabs

Mood for a Day

 
E||---3--3--3--3--2--x--|--3--3--3--3--2--x--|--3--3--3--3--0--0--| 
B||---3--3--3--3--2--x--|--3--3--3--3--2--x--|--3--3--3--3--2--2--| 
G||*--4--4--4--4--3--x--|--4--4--4--4--3--x--|--4--4--4--4--3--3--| 
D||*--5--5--5--5--4--x--|--5--5--5--5--4--x--|--5--5--5--5--4--4--| 
A||---5--5--5--5--4--x--|--5--5--5--5--4--x--|--5--5--5--5--4--4--| 
E||---3--3--3--3--2--x--|--3--3--3--3--2--x--|--3--3--3--3--0--0--| 
 
 
                                                                  
--x--0--x--0--0--x---||--x--0--x--0--0-----|-----------------3--| 
--x--2--x--2--2--x---||--x--2--x--2--2-----|-----------2--3-----| 
--x--3--x--3--3--x--*||--x--3--x--3--3-----|-----3--4-----------| 
--x--4--x--4--4--x--*||--x--4--x--4--4--4--|--5-----------------| 
--x--4--x--4--4--x---||--x--4--x--4--4-----|--------------------| 
--x--0--x--0--0--x---||--x--0--x--0--0-----|--------------------| 
 
 
                                                                   
--2--------2--------|-----------------------|-----------------0--| 
-----3-----------2--|--2--3--5--2-3-2-0-----|--3--2-----2--3-----| 
-----------------3--|--------------------2--|--------0-----------| 
--------4-----------|-----------------------|--------------------| 
--2-----2-----2-----|--0--------------------|--------------------| 
--------------------|-----------------------|--3--------2--------| 
 
 
                                                               
-------------------|-----------------3--|--2--------2--------| 
--3--2--0--2-------|-----------2--3-----|-----3-----------2--| 
-------------------|-----3--4-----------|-----------------3--| 
----------------4--|--5-----------------|--------4-----------| 
--2--------1-------|--------------------|--2-----2-----2-----| 
-------------------|--------------------|--------------------| 
 
 
                                                                      
--2-3-5-3-2-0--------------|-----------------0--|-------------------| 
---------------2-3-2-0-----|--3--2-----2--3-----|--3--2--0--2-------| 
------------------------2--|--------0-----------|-------------------| 
---------------------------|--------------------|----------------4--| 
--0------------------------|--------------------|--2--------1-------| 
---------------------------|--3--------2--------|-------------------| 
 
 
                                                                          
--------------------|------------------------|--------------------------| 
-----------2--3---0-|--2---------------------|--------------------------| 
-----3--4-----------|------3-4-0-3-----------|--------------------------| 
--5-----------------|--------------4-5-2-4-0-|--2-----------------------| 
--------------------|------------------------|----4-5-2-4-1-2---1-----1-| 
--------------------|------------------------|----------------3---2-3---| 
 
 
                                                               
--------------------------|----------------------------------| 
--------------------------|----------------------------------| 
--------------------------|----------------------------------| 
--------------------------|----------------------------------| 
--2---1-----1-2---1-----1-|--2-------------------------------| 
----3---2-3-----3---2-3---|----3-0-2-3-2-0-2-3-2-0-2-3-2-0-2-| 
 
 
                                                                            
----------------------|-------------------------|-------------------------| 
----------------------|--3----2--0--------------|--3----2--0--------------| 
----------------------|-------------2--1--------|-------------2--1--------| 
----------------------|--0----------------4--0--|-------------------4--0--| 
----------------------|-------------------------|-------------------------| 
--3-2-0-2-3-2---------|-------------------------|--0----------------------| 
 
 
                                                                            
-------------------------|----------------------|-------------------------| 
--3----2--0-----------0--|----------------------|--0~---------------------| 
-------------2--0--2-----|--2---------2---------|--0~---0--0-----------0--| 
-------------------------|-------0---------0----|--9~---7--5--4--2--4-----| 
-------------------------|----------------------|-------------------------| 
--3----------------------|----------------------|-------------------------| 
 
 
                                                                                
-------------------------2----|------------------------|----------------------| 
-------------------------3----|--3----1----------------|----------------------| 
--2-4-2-0----------------4----|----------3--2--0-------|----------------------| 
-----------2-4-2-0-------4----|-------------------0----|----0--2------0--2----| 
--------------------2----2----|--1---------------------|----1--3------1--4----| 
-------------------------2----|------------------------|----------------------| 
 
 
                                                                               
-------------------------|-------------------------|-------------------------| 
--3----2--0--------------|--3----2--0--------------|--3----2--0--------------| 
--2----------2--1--------|--1----------2--1--------|--0----------2--0--2--4--| 
--0----------------4--0--|--2----------------4--0--|--0-------------0--0--0--| 
--0----------------------|--2----------------------|--2----------------------| 
-------------------------|--0----------------------|--3----------------------| 
 
 
                                                                                 
----------------------|-------------------------|-------------------------2----| 
------------3---------|--0~---------------------|-------------------------3----| 
--2---------2----2----|--0~---0--0-----------0--|--2-4-2-0----------------4----| 
--0----0----0----0----|--9~---7--5--4--2--4-----|-----------2-4-2-0-------4----| 
----------------------|-------------------------|--------------------2----2----| 
----------------------|-------------------------|-------------------------2----| 
 
 
                                                                 
------------------------|--5--3--5--3--1--0--------------------| 
--3----1----------------|--------------------3--1--------------| 
----------3--2--0-------|--------------------------3--2--0-----| 
-------------------0----|-----------------------------------3--| 
--1---------------------|--------------------------------------| 
------------------------|--------------------------------------| 
 
 
                                                                           
-------------------------2--4--|--5--4--2--2--0-----|--------0-----------| 
-------------------------------|-----------------3--|--2--3-----3--2--0--| 
--2--0-------------------------|--------------------|--------------------| 
--------3--1-------------------|--2--------0--------|--------------------| 
--------------0----------------|--------------------|--0-----------------| 
-----------------3--2----------|--------------------|-----------3--------| 
 
 
                                                              
--------0-----------|------------2--4--|--5--4--2--2--0-----| 
--2--3-----3--2--0--|--2---------------|-----------------3--| 
--------------------|------------------|--------------------| 
--------------------|-------4----------|--2--------0--------| 
-----------2--------|--1---------------|--------------------| 
--2-----------------|------------------|--------------------| 
 
 
                                                                
--------0-----------|--------0-----------|--------0-----------| 
--2--3-----3--2--0--|--2--3-----3--2--0--|--2--3-----3--2--0--| 
--------------------|--------------------|--------------------| 
--------------------|--------------------|-----------4--------| 
--0-----------------|-----------2--------|--1-----------------| 
-----------3--------|--2-----------------|--------------------| 
 
 
                                                                         
--------0-----------|--------0-0-0-0-0-0-0-0-0-0-0-0-|-----------2--4--| 
--2--3-----3--2--0--|--2--3--3-3-3-3-3-3-3-3-3-3-3-3-|-----------------| 
-----------4--------|--------3-3-3-3-3-3-3-3-3-3-3-3-|--3--------------| 
--2-----------------|--------0-0-0-0-0-0-0-0-0-0-0-0-|--0--------------| 
--------------------|--------------------------------|--0--------------| 
--------------------|--------------------------------|--2--------------| 
 
 
                                                                       
--5--4--2--7--5--12--|--12---10-9--14---12-10--|--10--9--7--9---7-5--| 
---------------------|-------------------------|---------------------| 
---------------------|-------------------------|---------------------| 
--2--------0---------|-------------0-----------|--6---------7--------| 
---------------------|-------------------------|---------------------| 
---------------------|--9----------------------|---------------------| 
 
 
                                                              
--7--5--3--||---5------5-3-2-----0----|---------------------| 
-----------||-------------------------|------3---------3----| 
-----------||*------------------------|-----------2---------| 
--5--------||*--0---------------------|---------------------| 
-----------||-------------------------|---------------------| 
-----------||-------------------------|---------------------| 
 
 
                                                  2x                      
--5------5-3-2-----0----|-------------------------||--2--2--x--2--x--2--| 
------------------------|------3----0----3--0-----||--2--2--x--2--x--2--| 
--0---------------------|------------------------*||--3--3--x--3--x--3--| 
------------------------|------------------------*||--4--4--x--4--x--4--| 
------------------------|-------------------------||--4--4--x--4--x--4--| 
------------------------|-------------------------||--2--2--x--2--x--2--| 
 
 
                                                                      
--2--2--x--2--x--2--|--2--2--x--2--x--2--|--2--------------------3--| 
--2--2--x--2--x--2--|--2--2--x--2--x--2--|--2--------------2--3-----| 
--3--3--x--3--x--3--|--3--3--x--3--x--3--|--3--------3--4-----------| 
--4--4--x--4--x--4--|--4--4--x--4--x--4--|--4--4--5-----------------| 
--4--4--x--4--x--4--|--4--4--x--4--x--4--|--4-----------------------| 
--2--2--x--2--x--2--|--2--2--x--2--x--2--|--2-----------------------| 
 
 
                                                                   
--2--------2--------|-----------------------|-----------------0--| 
-----3-----------2--|--2--3--5--2-3-2-0-----|--3--2-----2--3-----| 
-----------------3--|--------------------2--|--------0-----------| 
--------4-----------|-----------------------|--------------------| 
--2-----2-----2-----|--0--------------------|--------------------| 
--------------------|-----------------------|--3--------2--------| 
 
 
                                                               
-------------------|-----------------3--|--2--------2--------| 
--3--2--0--2-------|-----------2--3-----|-----3-----------2--| 
-------------------|-----3--4-----------|-----------------3--| 
----------------4--|--5-----------------|--------4-----------| 
--2--------1-------|--------------------|--2-----2-----2-----| 
-------------------|--------------------|--------------------| 
 
 
                                                                      
--2-3-5-3-2-0--------------|-----------------0--|-------------------| 
---------------2-3-2-0-----|--3--2-----2--3-----|--3--2--0--2-------| 
------------------------2--|--------0-----------|-------------------| 
---------------------------|--------------------|----------------4--| 
--0------------------------|--------------------|--2--------1-------| 
---------------------------|--3--------2--------|-------------------| 
 
 
                                                                   
-----------------3--|--2--------2--------|--2--3--5--2-3-2-0-----| 
-----------2--3-----|-----3-----------3--|--------------------3--| 
-----3--4-----------|-----------------4--|--0--------------------| 
--5-----------------|--------4-----------|-----------------------| 
--------------------|--2-----2-----2-----|-----------------------| 
--------------------|--------------------|-----------------------| 
 
 
                                                                          
--3--5--7--5--3--0--|-----------------0--|-------------------|----2--4--| 
--0-----------------|--3--2--0--2--3-----|--3--2--0--2-------|----------| 
--------------------|--------------------|-------------------|----------| 
--------------------|--------------------|----------------4--|----------| 
--------------------|--------------------|--2--------1-------|----------| 
--------------------|--3--------2--------|-------------------|----------| 
 
 
                                                                
--5--4--2--2--0-----|--------0-----------|--------0-----------| 
-----------------3--|--2--3-----3--2--0--|--2--3-----3--2--0--| 
--------------------|--------------------|--------------------| 
--2--------0--------|--------------------|--------------------| 
--------------------|--0-----------------|-----------2--------| 
--------------------|-----------3--------|--2-----------------| 
 
 
                                                              
------------2--4--|--5--4--2--2--0-----|--------0-----------| 
--2---------------|-----------------3--|--2--3-----3--2--0--| 
------------------|--------------------|--------------------| 
-------4----------|--2--------0--------|--------------------| 
--1---------------|--------------------|--0-----------------| 
------------------|--------------------|-----------3--------| 
 
 
                                                               
--------0-----------|------------2--4--|--5--4--5--7--5--12--| 
--2--3-----3--2--0--|--2---------------|---------------------| 
--------------------|------------------|---------------------| 
--------------------|-------4----------|--2--------0---------| 
-----------2--------|--1---------------|---------------------| 
--2-----------------|------------------|---------------------| 
 
 
                                                             
--12---10-9--14---12-10--|--10--9--7--9---7-5--|--7--5--3--| 
-------------------------|---------------------|-----------| 
-------------------------|---------------------|-----------| 
-------------0-----------|--6---------7--------|--5--------| 
-------------------------|---------------------|-----------| 
--9----------------------|---------------------|-----------| 
 
 
                                                                           
|---5------5h3h2-----0----|---------------------|--5------5-3-2-----0----| 
|-------------------------|------3---------3----|------------------------| 
|*------------------------|-----------2---------|--0---------------------| 
|*--0---------------------|---------------------|------------------------| 
|-------------------------|---------------------|------------------------| 
|-------------------------|---------------------|------------------------| 
 
 
                                                                           
-------------------------||--5------5h3h2-----0----|---------------------| 
------3----0h---3--0-----||------------------------|------3---------3----| 
------------------------*||------------------------|-----------2---------| 
------------------------*||--0---------------------|---------------------| 
-------------------------||------------------------|---------------------| 
-------------------------||------------------------|---------------------| 
 
 
                                                          
--5------5h3h2---------|--------------------------------| 
-----------------------|--3h2h0-------------------------| 
--0--------------------|-----------------4h2h0----------| 
-----------------------|--------------------------------| 
-----------------------|--------------------------------| 
-----------------------|--------------------------------| 
 
 
                                                                       
---------------------------|---------------------|------------------|| 
---------------------------|---------3-----------|------------------|| 
---------------------------|--2------------------|------------------|| 
--4h2h0---------------0----|---------------------|------------------|| 
-----------------2---------|---------------------|------------------|| 
---------------------------|------------------2--|------------------|| 
 
 
 
_______________________________________________________ 
Contribuição: Vinicius Green Blood([email protected])  
less
plus
Add to Songbook Print Version How to play lesson Submit videolesson
Click the best TAGS for this song:
None of them
Contributor: guitjimm Correct

If you can not find the chords or tabs you want, look at our partner E-chords. If you are a premium member, you have total access to our video lessons.

If you find a wrong Bad To Me from Yes, click the correct button above.

login/signup
my songbooks
my recent views
my submits