tools Ultimate Tabs

Start AutoScroll Font Size Down Font Size Up

Find us on Facebook

chords
tabs
bass
ukulele keyboards
drums
flute
harmonica
guitar pro
video
Ultimate-Tabs

S.o.s.

Intro: G A C G D 

 
E|----------------------------------------------------------| 
B|--8-8-10/12-10-8------10/12-10-8------10/12-10-8-8--------| 
G|-----------------9-9-------------9-9----------------7/9-7-| 
D|----------------------------------------------------------| 
A|----------------------------------------------------------| 
E|----------------------------------------------------------| 
G A Hoje domingo, missa e praia, cu de anil... C Tem sangue no jornal D Bandeiras na avenida Brasil G A L por detrs da triste e linda Zona Sul C Vai tudo muito bem D G Formigas que trafegam sem porqu
 
E|--------------------------| 
B|------3-------------------| 
G|--2/4---2p0---------------| 
D|------------2~--2-2p0-----| 
A|----------------------2---| 
E|------------------------3-| 
A E das janelas destes quartos de penso C D G Eu, como vetor, tranqüilo tento uma transmutao. C D Bm seu moo, do disco voador Em C D G Me leve com voc, pra onde voc for C D Bm seu moo, mas no me deixe aqui Em C D G Enquanto eu sei que tem tanta estrela por a... (Intro:) G A Andei rezando para Totens e Jesus C Jamais olhei pro cu D Meu disco voador alm G A C J fui macaco em domingos glaciais, Atlantas colossais... D G Que eu no soube como utilizar
 
E|--------------------------| 
B|------3-------------------| 
G|--2/4---2p0---------------| 
D|------------2~--2-2p0-----| 
A|----------------------2---| 
E|------------------------3-| 
A E nas mensagens que nos chegam sem parar C Ningum pode notar D G Esto muito ocupados pra pensar C D Bm seu moo, do disco voador Em C D G Me leve com voc, pra onde voc for C D Bm seu moo, mas no me deixe aqui Em C D G Enquanto eu sei que tem tanta estrela por a... Em C | Enquanto eu sei que tem | D G | 2x Tanta estrela por a... | Solo: G A C G
E|---------------------------------------------------------------------------| 
B|--8-8-10/12-10-8------10/12-10-8------10/12-10-8-8------3------------------| 
G|-----------------9-9-------------9-9----------------2/4---2p0--------------| 
D|--------------------------------------------------------------2~-2-2p0-----| 
A|-----------------------------------------------------------------------2---| 
E|-------------------------------------------------------------------------3-|
less
plus
Add to Songbook Print Version How to play lesson Submit videolesson
Click the best TAGS for this song:
None of them
Contributor: seanmaur Correct

If you can not find the chords or tabs you want, look at our partner E-chords. If you are a premium member, you have total access to our video lessons.

If you find a wrong Bad To Me from Z Ramalho, click the correct button above.

login/signup
my songbooks
my recent views
my submits